Зинчук Виктор – Лолита

Аккорд E Аккорд G Аккорд B
E|--7----8--------------|--10------------------|
B|---10-------10-------------------|
G||--9------9------------------------10--------|
D----------------------|
A----------------------|
E----------------------|


                                                                     
--------------10------|--8----7-------------------------|
--8------8-------------10--------|--8-------------------|
---------------------------------|-------10--------9----|
--------------------------------------------|
--------------------------------------------|
--------------------------------------------|


                                                                  
--8------8----7------|--5----------------------------|
---------------------|-------8----6----5-------------|
--------------------------------|--9--------7--------|
-----------------------------------------|
-----------------------------------------|
-----------------------------------------|


                      
---------------------|
---------------------|
--9----9--------9----|
---------------------|
---------------------|
---------------------|


                                                                            
---------------------------------------------------------------------------|
---------------------------------------------------------------------------|
--9--------9-9-9-9-9-9-9-9-9-9-9-9-9-9-9-9-9-9-9-9-9-9-9-9-9-9-9-9-9-9-9-9-|
---------------------------------------------------------------------------|
---------------------------------------------------------------------------|
---------------------------------------------------------------------------|