Ышо-Ышо – Трава

Аккорд C Аккорд D Аккорд F Аккорд G# Аккорд A
A C D A
Собрались мужчины без толку без причины
Взяли в руки косы и пошли косить траву на откосе
F G# C C
я не трезв и не пьян сочная трава да колючий бурьян
F G#
я найду в тебе изъян
A C D A
твоя красота наполняет мою душу тоской
я хочу тебя да по голове доской
F G# C C
я не трезв и не пьян сочная трава да колючий бурьян
F G#
я найду в тебе изъян...

Соляк:

--------------------------------------17-15-12-----------------
-15^(17)-15------------------------------------17-15-12--------
-------------14------------12----------------------------15-14-
------------------12-13-14----13-14----------------------------
---------------------------------------------------------------
---------------------------------------------------------------

-7h8p7------7h8p7----------------------------------------------
--------8----------8-10----------------------------------------
----------9--------------4h5p4------4h5p4----------------------
--------------------------------5----------5-------------------
----------------------------------5----------7-----------------
---------------------------------------------------------------

-----------------------------------------------------
-----------------------------------------------------
-9-7-5------5-7-9-7-5----9-7-5------5-7-9-7-9--------
---------7-------------------------7-----------------
-----------------------------------------------------
-----------------------------------------------------

---------------------------------------------------------------
----13----15----13--------13----15----13-----13----X-X-13sl15--
-12----12----12--------12----12----12--------------------------
---------------------------------------------------------------
---------------------------------------------------------------
---------------------------------------------------------------

---------------------------------------------------------------
-15sl17-17-17---17-----13----15----13------13----15----13------
---------------------12----12----12------12----12----12--------
---------------------------------------------------------------
---------------------------------------------------------------
---------------------------------------------------------------