Виагра – Попытка №5

Аккорд C Аккорд Dm Аккорд E Аккорд Em Аккорд G Аккорд Am
ИНТРО:)
                  
1|----------13-13--------------------10-10-------8-|
2|-10-12-13-------13-13-12-10-8----8-------12-12---|
3-------------------12-----------------|
4--------------------------------------|

1----------------------------10-10------------|
2|-10-12-13--12-10-8-----10-8-8-----8-12-------12-12-13---|
3--------12---------12------------------------|
4---------------------------------------------|

1|----------13-13--------------------10-10-------8-|
2|-10-12-13-------13-13-12-10-8----8-------12-12---|
3-------------------12-----------------|
4--------------------------------------|

1----------------------------10-10------------|
2|-10-12-13--12-10-8-----10-8-8-----8-12-------12-12-10---|
3--------12---------12------------------------|
4---------------------------------------------|

   Am
   Я мало кого любила:
   C          Em         G    Am
   Второй надоел, третьего забыла,
   Четвертый исчез во вторник,
   О первом почти ничего не помню.

               Dm
 ТИПА ПРИПЕВ:  Но 5-й мой совсем не ТАКОЙ,
               Dm
               В его руках я таю как снег,
               Dm
               Меня уносит теплой рекой
               E
               В поднебесье!

          Am       Dm       G            E             Am
 ПРИПЕВ:  А я простила, я простила его опять, опять, опять,
                    G            C          E
          О, как намаялась я стобой, моя попытка N5!
          А я простила, я простила его, напрасно, видимо.
          Теперь страдаю от этого, теряя независимость.

 1|----------13-13--------------------10-10-------8-|
 2|-10-12-13-------13-13-12-10-8----8-------12-12---|
 3-------------------12-----------------|
 4--------------------------------------|

 1----------------------------10-10------------|
 2|-10-12-13--12-10-8-----10-8-8-----8-12-------12-12-13---|
 3--------12---------12------------------------|
 4---------------------------------------------|

 1|----------13-13--------------------10-10-------8-|
 2|-10-12-13-------13-13-12-10-8----8-------12-12---|
 3-------------------12-----------------|
 4--------------------------------------|

 1----------------------------10-10------------|
 2|-10-12-13--12-10-8-----10-8-8-----8-12-------12-12-10---|
 3--------12---------12------------------------|
 4---------------------------------------------|

   Подруги просили слезно:
   "Алена, спасайся, пока не поздно!"
   "Держись от него подальше!"-
   Печально сказала подруга Маша.

 ТИПА ПРИПЕВ