The Animals – Its My Life

This is the intro. (it's all I know)
Listen to the song to better understand

----------------------------
----------------------------
----------------------------
----------------------------
--0-2--0-2--0-2-0-----------
------------------2-0-2-----
2x

----------------------------
----------------------------
----------------------------
----------------------------
------0-2-3-3-0-3-2-0-------
--2-2-----------------2-0-2-

I learned this from my dad so I don't know how accurate it is but it sounds right to me. Enjoy!
Submit By: Josh Gibson