The Animals – House Of The Rising Sun

Аккорд D Аккорд E Аккорд G Аккорд A
House Of The Rising Sun - The Animals

  intro                    verse
G|------------------------|-------------------------------------------------------------------|
D|---------3--------------|---------3------------------------3-----------------3--------------|
A|---3--5-----------------|---3--5--------3--57--7-----3--5--------------3--5-----------------|
E|5-----------5--0--5--0--|5-----------5------------5-----------5--0--5-----------5--0--5--0--|

  outro
G|--------------------------------------|
D|----------------------75------345675--|
A|5-----5-----5-----5--7--76537---------|
E|---5-----5-----5----------------------|

tabbed by Achilles (blue_sincere@hotmail.com)