Фабрика – Гимн Фабрики Звезд

Аккорд E
Вступление:

        e	-----9-7---0-7-5---0-7-5--3-2-0------------
        b 	|--5p7p5-------7-----------------------------3-2-------
        g	|--------7-6-7-----------------------------------3-4---
        d	-------------------------------------------	  2 раза
        a	-------------------------------------------
        E	-------------------------------------------

Куплет:

        e	--------5-3-2-0------------------------------------------
        b 	|--5-7-8-7-5-3-2-0 ---------3-2-0---2-3-5-3-2-0----------------------
        g	-------------------------------------3-1--1-3-4-3-4-6-7--
        d	---------------------------------------------------------
        a	---------------------------------------------------------
        E	---------------------------------------------------------

        e	-------5-3-2-0-------------------------------------------
        b 	|--5-7-8-7-5-3-2-0---------3-2-0---2-3-5-3-2-0-----------------------
        g	-------------------------------------3-1--1-3-4-3-1-0-1--
        d	---------------------------------------------------------
        a	---------------------------------------------------------
        E	---------------------------------------------------------