Блестящие – Долго тебя ждала

Аккорд Em Аккорд F# Аккорд Hm
Если играть без всяких наворотов то можно сыграть на две гитары примерно
так:


		    Em	  F#                   Hm
-----------------------------------------------------------------------|
-----5s7-5----------------------5s7-5----------------------------------|
-----------7s9-7-6s7------------------7s9-7-6s7------------------------|
--------------------9--------------------------9-----------------------|
-----------------------------------------------------------------------|
-----------------------------------------------------------------------|
          

		    Em	  F#                   Hm
-----------------------------------------------------------------------|
-----5s7-5-------------5s75-----5s7-5----------------------------------|
-----------7s9-7-6s7------------------7s9-7-6s7------------------------|
--------------------9--------------------------9-----------------------|
-----------------------------------------------------------------------|
-----------------------------------------------------------------------|
  

Я устала на свет лететь, 
Я узнала покой с тобой,        
А чего мне еще хотеть, 
Если ты итак со мной,
                                       
 Долго тебя ждала, вот я и дождалась,                                     
 Любовь свою нашла, любовь сама нашлась.

Я устала с огнем играть,
И сказала хочу любить,
Чтоб однажды тебя узнать,
И уже не забыть.
Пр.