Азъ – Ваши законы

Аккорд D Аккорд G Аккорд A Аккорд D#5 Аккорд B Аккорд E5 Аккорд C5
Начало:
B|-5--4--7--5-------1----| C#5

Далее всю песню идут квинты C#5 C5 D#5 C#5, E5 D#5 E#5* C#5
Это будет выглядить так:

E--------------------|
B--------------------|
G|--6--5--8--6----9--8--11-6-----|
D|--6--5--8--6----9--8--11-6-----|
A|--4--3--6--4----7--6--9--4-----|
E--------------------|

Ваши законы всюду всегда
Ваши короны пустая нуда
Вам ли короны за перческий труд
Две эти вороны тоже орут

Слышите всякие музыку сфер
Но и собаки ходят на свет
Ангелов трубы услышьте разок
Сам бы на губы повесил замок



E--------3----------------------------
B|-3-2---5-3---6-5-----3-|-3-3/6/3/6/3/6/3--2--5 5/8/5/8/5/8/5

-----------------------------------------------------|
--3--6-6/9/6/9/6/9/6--5--8-8/11/8/11/8/11/8--3-------|

----------------3-10-|
|-3-0-2----5-6-3----6-3-5--------|