Азъ – Собаки Луны

Аккорд Dm Аккорд G Аккорд A Аккорд A# Аккорд Hm
Вступление:
1/-------------------------------------------------------------------------------------------------------------------------------
2/-------------------------------------------------------------------------------------------------------------------------------
3/-------------------------------------------------------------------------------------------------------------------------------
4/-------7---7--7--7--7-----0--8-----7---7--7--7--7-----0-------------7---7--7--7--7-----0--8--7--------------------------------
5/-------5---5--5--5--5--------------5---5--5--5--5---------8--7------5---5--5--5--5--------------------8---8--8--8--8--8--7----
6/------------------------------------------------------------------------------------------------------6---6--6--6--6--6--5----
Dm                 A#
Все,что осталось тебе:
Dm                 A# A
Выпить бутылку портвейна.
Dm              A# A 
Сядь,закури сигарету,
A#                 A
Пепел развей по земле.
Припев:
Hm      G          A          
Собаки галдят на Луну,
До драки в собачьем кругу.
За мясо в глотку тебе.
Ни часа любви на Земле.
Проигрыш:
             
1)---------------------------------------------------
2)---------------------------------------------------
3)---------------------------------------------------
4)---------------------------------------------------
5)-------5--5--5--5--5--5--5--5--5--5--6--6---67------
6)-------3--3--3--3--3--3--3--3--3--3--4--4---45------

( В проигрыше на окончании (квинт 7,5) по струнам удар не наносится а просто передвигаються пальцы,ну, короче, кто слышал , тот поймет!)