Азъ – Бунт

Аккорд D Аккорд E Аккорд A Аккорд A5 Аккорд C5 Аккорд G5
Начало:
E-----------------------------------------|
B-----------------------------------------|
G-----------------------------------------|
D|--7-7--------7-7-------------7-7--------------------|
A|--7-7-7-6-5--7-7-7-6-5--2-3--7-7-7-6-5--3-2-0-3-0-0-|
E|--5-5--------5-5-------------5-5--------------------|

Рифф:
D|--7-7-7-7-8-5-|
A|--7-7-7-7-8-5-| 
E|--5-5-5-5-6-3-|

Рифф 8 раз

  A5                C5 G5
Бунт - состоянье непокоя
Бунт всегда против строя
Бунт собирает всех вместе
Бунт убивает на месте

 A5       C5      G5
Пусть неприемлемы смены
Бунт - несет перемены
Бунт создает настроенье
Бунт угнетает мгновенье

Рифф 4 раза

  A5             C5  G5
Бунт по природе уродец
Бунт - это смелый народец
Бунт переходит границы
Бунт прожигает зорницы
 
  A5        C5       G5
Бунт - сотня выбитых окон
Бунт - хитроумнейший кокон
Бунт - это ночь баррикады
Бунт побежден из ограды

G-----------5-7---------------7--5-3-2--|
D|-7-7-7-7-8-5--7-7-7-7------7-7-7-7-8-5------------|

|---5-----5/7-5/7----5-----5/7-5/7------------------|
|-7---7-5----------7---7-5----------7---------------|

   A5         C5         G5
Бунт - это смерть после жизни
Бунт - собирание ???(не понял)
Бунт по истории вечен
Бунт сам в себе бесконечен