Audioslave – Like A Stone (ver 8)

Аккорд D Аккорд E Аккорд G Аккорд A Аккорд B
Audioslave - Like a Stone
Tabbed by Alan
mail_sinapsis@terra.com.mx

There are two guitars in the song, one does the main riff and the
chorus clean, and the other does the same but with a tremolo effect.

Main riff

e----------------------------------------------|
B----------------------------------------------|
G----------------------------------------------|                            
D--8----10--------------13-12-8----10----------|      
A----10----8-----12-------------10----8------12|
E------------ 10------11------------------10---| ...etc. 

Chorus with a light distorsion and a slight reverb

e-----------|	  |-----------------------------------|
B-----------|	  |-----------------------------------|
G-----------|	  |-----------------------------------|
D-------3---|	  |-7-----3-----7----7-----3-----7--7-|
A-5--8--3--5|	  |-5--5--3--5--5----5--5--3--5--5--5-|
E-3--6--1--3| 2x  |----3--1--3----------3--1--3-------|

The solo
In this part the effects are a distorsion, wah, whammy(Digitech pitch shifter) and a delay

e|--------------------------------------------------|
B|--------------------------------------------------|
G|-12v-14-15v-17-15-14-12----12v-14/10v-15-17-19-19v|
D|--------------------------------------------------|
A|--------------------------------------------------|
E|--------------------------------------------------|

Repeat this four times
e|-18-18-18-17-17-17-----------------|
B|------------------18-18-18-15-15-15|
G|-----------------------------------|	   
D|-----------------------------------|
A|-----------------------------------|
E|-----------------------------------|

The outro scale
e-------------------------17-18-17-18-17v|
B-------------------18-20----------------|
G-12-14-15-17-19-20----------------------|
D----------------------------------------|
A----------------------------------------|
E----------------------------------------|

The acoustic bridge the chords are:

D#(6th fret)-A#-F-Gm
D#m-A#-F-Gm

Here enters two acoustics and the bass

D#(6th fret)-A#-F-Gm
D#m-A#-D-D-D-D
       Here the two electrics do only two strokes and then the final chorus

Well that's all but I think this is 100% correct but you have to rate it
More tabs are coming.			

Все песни исполнителя Audioslave

Bring Em Back Alive текст, аккорды, табулатура Bring Em Back Alive текст, аккорды, табулатура Bring Em Back Alive текст, аккорды, табулатура Cochise текст, аккорды, табулатура Cochise текст, аккорды, табулатура Cochise текст, аккорды, табулатура Cochise текст, аккорды, табулатура Cochise текст, аккорды, табулатура Cochise текст, аккорды, табулатура Exploder текст, аккорды, табулатура Exploder текст, аккорды, табулатура Exploder текст, аккорды, табулатура Free текст, аккорды, табулатура Gasoline текст, аккорды, табулатура Gasoline текст, аккорды, табулатура Gasoline текст, аккорды, табулатура Gasoline текст, аккорды, табулатура Gasoline текст, аккорды, табулатура Getaway Car текст, аккорды, табулатура Getaway Car текст, аккорды, табулатура Getaway Car текст, аккорды, табулатура Golden Visions текст, аккорды, табулатура Hypnotize текст, аккорды, табулатура Hypnotize текст, аккорды, табулатура Hypnotize текст, аккорды, табулатура I Am The Highway текст, аккорды, табулатура I Am The Highway текст, аккорды, табулатура I Am The Highway текст, аккорды, табулатура I Am The Highway текст, аккорды, табулатура I Am The Highway текст, аккорды, табулатура I Am The Highway (solo ver 2) текст, аккорды, табулатура Light My Way текст, аккорды, табулатура Light My Way текст, аккорды, табулатура Like A Stone текст, аккорды, табулатура Like A Stone текст, аккорды, табулатура Like A Stone текст, аккорды Like A Stone текст, аккорды, табулатура Like A Stone текст, аккорды, табулатура Like A Stone текст, аккорды, табулатура Like A Stone текст, аккорды, табулатура Like A Stone текст, аккорды, табулатура Like A Stone текст, аккорды, табулатура Like A Stone текст, аккорды, табулатура Like A Stone текст, аккорды, табулатура Like A Stone текст, аккорды, табулатура Like A Stone текст, аккорды, табулатура Like A Stone текст, аккорды, табулатура Like A Stone (ver 10) текст, аккорды, табулатура Like A Stone (ver 11) текст, аккорды, табулатура Like A Stone (ver 12) текст, аккорды, табулатура Like A Stone (ver 13) текст, аккорды, табулатура Like A Stone (ver 8) текст, аккорды, табулатура Like A Stone (ver 9) текст, аккорды, табулатура Love Is A Headache текст, аккорды, табулатура Set It Off текст, аккорды, табулатура Set It Off текст, аккорды, табулатура Set It Off текст, аккорды, табулатура Set It Off текст, аккорды, табулатура Shadow On The Sun текст, аккорды, табулатура Shadow On The Sun текст, аккорды, табулатура Shadow On The Sun текст, аккорды, табулатура Show Me How To Live текст, аккорды, табулатура Show Me How To Live текст, аккорды, табулатура Show Me How To Live текст, аккорды, табулатура Show Me How To Live текст, аккорды, табулатура Show Me How To Live текст, аккорды, табулатура Show Me How To Live текст, аккорды, табулатура Show Me How To Live текст, аккорды, табулатура We Got A Better Bomb текст, аккорды, табулатура What You Are текст, аккорды, табулатура What You Are текст, аккорды, табулатура What You Are текст, аккорды, табулатура