All Star United – Smash Hit

Аккорд D Аккорд E Аккорд G Аккорд A
Tabbed by blink1skate2@hotmail.com
my second tab  (my first was Bon Jovi-One Wild Night)

ALL STAR UNITED - SMASH HIT

guitar intro

INTRO
G|-----------|
D|-----------|
A|--7-7-7-6--|
E|-----------|

CHORUS
G|---------------------------------------------|
D|---------------------------------------------|
A|------4-4------5-5-5-4------4-4-----7-7-7-6--|
E|--5-5-----2-2-----------5-5-----2-2----------|

VERSE
G|-----------|
D|-----------|
A|--------5--|
E|--5-4-2----|

BRIDGE
G|----------------|
D|----------------|
A|------7------5--|
E|--5-5----5-5----|