All Star United – Smash Hit

Author/Artist: ALL STAR UNITED
Title: SMASH HIT
Transcribed by: KENNY BOCHAT
Email: KRBX3@email.msn.com

verse1

------------------------------------------------------------------------------
------------------------------------------------------------------------------
------------------------------------------------------------------------------
-55-99-22-10-10-10-9----55-99-22-12-12-12-11----------------------------------
 intro(and chorus)                                                            

------------------------------------------------------------------------------
------------------------------------------------------------------------------
------------------------------------------------------------------------------
-5-4-2-10--5-4-2-10-----10-10-10-10-101010------------------------------------
 verse                   bridge                                               

------------------------------------------------------------------------------
------------------------------------------------------------------------------
------------------------------------------------------------------------------
-55-99-22-10-10-10-9---55-99-22-12-12-12-11-----------------------------------
 chorus                                                                       

------------------------------------------------------------------------------
------------------------------------------------------------------------------
------------------------------------------------------------------------------
-5-4-2-10--5-4-2-10------------10-10-10-10-101010-----------------------------
 verse2                bridge                                                 

------------------------------------------------------------------------------
------------------------------------------------------------------------------
------------------------------------------------------------------------------
-55-99-22-10-10-10-9---55-99-22-12-12-12-11-----------------------------------
 chorus                                     repeat