Aguilera Christina – The Voice Within

Аккорд D Аккорд E Аккорд G Аккорд A Аккорд B
E|--------3----------3--1--0--||  Repeat this once
B|--------3----------3--------||  For the entire
G|-----0----------0-----------||  Intro.
D|----------------------------||
A|----------------------------||
E|---3---------3--------------||



E|--------3--------3--------3--------3---||  Repeat this 
B|--------3--------3--------3--------3---||  as many times
G|-----0---------0-------0--------0------||  as needed for
D|---------------------------------------||  the rest of the
A|--------------------3------------------||  song (yes, even
E|--3--------3-----------------0---------||  the chorus) i'm 


Well, that's all I hope you enjoyed it while it lasted,
Gina