Afroman – Crazy Rap

Аккорд D Аккорд E Аккорд G Аккорд A Аккорд B
tabs: afroman
song: crazy rap
tabbed by: richard shearer

e |-------------------------------------------------------
B |-------------------------------------------------------
G |-------------------------------------------------------
D |--------------5r7-7-5-7--------------------------------
A |---------5-7-------------------------------------------
E |--5-7-8------------------------------------------------


sometimes the bass part goes a little bit different in the end:

e |-------------------------------------------------------
B |-------------------------------------------------------
G |-------------------------------------------------------
D |---------5-3-2-0---------------------------------------
A |-------------------------------------------------------
E |-------------------------------------------------------

the whole song goes like this.
if u have any comments  write to: richardshearer@katamail.com