Acid Bath – Scream Of The Butterfly

Acid Bath - Scream of the Butterfly
Spaz (dr_death46290@hotmail.com)

This is the correct way to play the intro/1st verse.
E-tuning

------------------------------
------------------------------
------------------------------
------4--0-------2--0---------
--2------------2----------4--0
------------------------------

then its

------------------------------
------------------------------
------------------------------
------------------------------
------4--0-------2--0---------
--2------------2----------4--0

if anybody's got the rest of the song, e-mail it to me.