Noori – Neend Aye Na

Neend Aye Na is simple song and easy to play.

Riff 1: INTRO
e----------------------------------------------------------|
b----------------------------------------------------------|
g----------------------------------------------------------|
d---55-------8-7--77--------10-8---------------------------|
a-------8-66----------10-88--------------------------------|
E----------------------------------------------------------|
The above riff goes on playing while the second guitarist plays the following 
song carefully for precise and accurate co-ordination.

Riff 2:
e------3-----------3------3----------------------------------|
b--------3-1h3-11-----------3-1h3-11-------------------------|
g----------------------------------------0h2-----------------|
d----2-------------------2-----------------------------------|
a---0-------------------0------------------------------------|
E------------------------------------------------------------|

Am*                            F*                    C*
yeh dil ab manay na, in rahon ko jaane na                                      * shows power chords
Am*                                     F*                           C*
bhooli hooye in baaton main jeevan ko pehchaane na
Am                    F                    C        G
jaage hain mere dil main kaye armaan bhoole na paayen
Am                                   F                          C
khushion ke rangon main ghum bhi hain meri jaan
G
bhoolain kahan
Am                  F                    C              G
yara neend aye na ke dil kahin toot jaye na
Am                       F                          C               G
yara ab neend aye na ke hum kahin bhool jayen na
           Am          F             C       G      F    Am
sun le sada ay khuda mera dil ab tanha roye na

Now I think it is more than enough.Most expected you guys have better idea about this song.So
write to me at                   ali_thesaint@yahoo.com

                  ALLAH NIGEHBAAN			

Все исполнители

1-9

A

B

C

D

E

F

G

H

I

J

K

L

M

N

O

P

Q

R

S

T

U

V

W

X

Y

Z

А

Б

В

Г

Д

Е

Ж

З

И

К

Л

М

Н

О

П

Р

С

Т

У

Ф

Х

Ц

Ч

Ш

Щ

Ы

Э

Ю

Я