Noori – Dobara Phir Se

BY: Muhammad Bilal Nawaz
Well this is the intro version of Dobara Phir se(acoustic). This tablature runs thru out 
song. I figured it out while playing the G and the Cadd9 chords.

e-----3--|------3-----|-----3----|------3-----------------------|
B---3---3|----3---3-3-|---3---3--|----3---3-3-------------------|
G--------|---0--------|----------|--0---------------------------|
D-0------|-2----------|----------|------------------------------|
A--------|------------|2---------|3-----------------------------|
E--------|------------|----------|------------------------------|

This part is the main song
e----------------------------------------------------|
B----------------------------------------------------|
G--9-9-9-9---6-6-6-6---------------------------------|
D--9-9-9-9---6-6-6-6--6-6-6-6---7-7-7---9-9----------|
A--7-7-7-7---4-4-4-4--6-6-6-6---7-7-7---9-9----------|
E---------------------4-4-4-4---5-5-5---7-7----------|

This runs in the whole song with some variations...figure that out urself....:P:P			

Все исполнители

1-9

A

B

C

D

E

F

G

H

I

J

K

L

M

N

O

P

Q

R

S

T

U

V

W

X

Y

Z

А

Б

В

Г

Д

Е

Ж

З

И

К

Л

М

Н

О

П

Р

С

Т

У

Ф

Х

Ц

Ч

Ш

Щ

Ы

Э

Ю

Я