Christensen Tim – Love Is A Matter Of

Tim Christensen - Love Is A Matter Of...

Transcribed by Hans Humle





Capo on 2nd fret

Intro
---3-----3-----3-----3-----3-g
---0-----0-----1-----0-----0-e
---0-----0-----0-----0-----0-n
---0-----0-----0-----0-----0-t
---2-----2-----2-----2-----2-a
---3-----3-----3-----3-----3-g

Verse
---3-----2-----0-----0-----0-----0-----2-----2-----3-----2-----0-----0-----0-----2-----3-----3-----3-g
---0-----3-----1-----1-----1-----1-----0-----0-----0-----3-----1-----1-----1-----3-----0-----1-----0-e
---0-----2-----2-----2-----0-----0-----0-----0-----0-----2-----2-----2-----0-----2-----0-----0-----0-n
---0-----0-----2-----2-----2-----2-----0-----0-----0-----0-----2-----2-----2-----4-----0-----0-----0-t
---2-----x-----0-----0-----3-----3-----2-----2-----2-----x-----0-----0-----3-----5-----2-----2-----2-a
---3-----x-----x-----x-----x-----x-----3-----3-----3-----x-----x-----x-----x-----x-----3-----3-----3-g

Chorus
---0-----0-----0-----0-----2-----0-----0-----0-----2-----3-----3-----3
---0-----0-----0-----0-----3-----0-----1-----1-----3-----0-----1-----0
---0-----0-----0-----0-----4-----1-----2-----0-----2-----0-----0-----0
---2-----2-----2-----2-----4-----2-----2-----2-----4-----0-----0-----0
---3-----3-----3-----3-----2-----2-----0-----3-----5-----2-----2-----2
---x-----x-----x-----x-----x-----0-----x-----x-----x-----3-----3-----3

Solo
-----------3-----------------5----------------5----5----5--------------------------------------------------------
---5---5-----5---5^7---7-----7---7^8---8----8----7---7----8---5---8---5---8---5---8---5---7---7--------
-----------------------------------------------------------------------------------------------------------7-------
---------------------------------------------------------------------------------------------------------------9---
--------------------------------------------------------------------------------------------------------------------
--------------------------------------------------------------------------------------------------------------------

Solo. 
Am--Hm--C--D--Am--C--Gmaj7


2nd Chorus
---0-----0-----0-----0-----2-----0-----0-----0-----2-----3-----0-----0-----0-----2-----0-----3
---0-----0-----0-----0-----3-----0-----1-----1-----3-----2-----0-----1-----1-----3-----1-----3
---0-----0-----0-----0-----4-----1-----2-----0-----2-----0-----1-----2-----0-----2-----0-----0
---2-----2-----2-----2-----4-----2-----2-----2-----4-----0-----2-----2-----2-----4-----2-----0
---3-----3-----3-----3-----2-----2-----0-----3-----5-----0-----2-----0-----3-----5-----3-----2
---x-----x-----x-----x-----x-----0-----x-----x-----x-----3-----0-----x-----x-----x-----x-----3




(c) 2001 timchristensen.net



			

Все исполнители

1-9

A

B

C

D

E

F

G

H

I

J

K

L

M

N

O

P

Q

R

S

T

U

V

W

X

Y

Z

А

Б

В

Г

Д

Е

Ж

З

И

К

Л

М

Н

О

П

Р

С

Т

У

Ф

Х

Ц

Ч

Ш

Щ

Ы

Э

Ю

Я