Beta Band – Dry The Rain

Standard Tuning

/ = slide up
r = let note ring

Some of the fills might not be 100% but you can fill them in however
you want to play them.  This is a play it as you read it tab.
Please rate it and leave comments.

G|----------------|----------------|----------------|----------------|
D|----------------|----------------|----------------|----------------|
A|7r--------------|7r--------------|7r--------------|7r--------------|
E|----------------|----------------|----------------|----------------|

G|----------------|----------------|----------------|----------------|
D|----------------|7r--------------|----------------|7r--------------|
A|7r--------------|----------------|7r--------------|----------------|
E|----------------|----------------|----------------|----------------|

G|----------------|----------------|----------------|----------------|
D|7r--------------|----------------|----------------|----------------|
A|----------------|7r--------------|----------------|3r--------------|
E|----------------|----------------|5r--------------|----------------|

G|----------------|----------------|----------------|----------------|
D|----------------|----------------|----------------|----------------|
A|2r--------------|5r--------------|----------------|----------------|
E|----------------|----------------|5r--------------|3r--------------|

G|----------------|----------------|
D|----------------|----------------|
A|----------------|7r--------------|
E|2r--------------|----------------|

G|----------------|----------------|----------------|----------------|
D|----------------|----------------|----------------|----------------|
A|7r--------------|7r--------------|7r--------------|7r--------------|
E|----------------|----------------|----------------|----------------|

G|----------------|----------------|----------------|----------------|
D|--------------5-|7-------7-----5-|--------------5-|7----5-7--7-----|
A|7------7--7-----|----------------|7------7--7-----|----------------|
E|----------------|----------------|----------------|----------------|

G|----------------|----------------|----------------|----------------|
D|7----5-7--7-----|----------------|----------------|----------------|
A|----------------|7------7--7-----|----------------|3---3--3--3-----|
E|----------------|----------------|5---5--5--5-----|----------------|

G|----------------|----------------|----------------|----------------|
D|----------------|----------------|----------------|----------------|
A|2------2--2---2-/5------5--5-----|----------------|----------------|
E|----------------|----------------|5-----5---55----|3-----3---33----|

G|----------------|----------------|
D|----------------|----------------|
A|--------------2-/7---7--7-77-----|
E|2---2--2--22----|----------------|

G|----------------|----------------|----------------|----------------|
D|----------------|----------------|----------------|----------------|
A|2--22-02-02-2-2-/5---5--5--5-5-7-|----------------|----------------|
E|----------------|----------------|5---5--5--5-----|3---3--33-3-----|

G|----------------|----------------| similar variants of this, play 
D|----------------|----------------| it how you want.
A|--------------2-/7---7-57-57-7---| 
E|2------22-2-----|----------------| x2

G|----------------|----------------|----------------|----------------|
D|----------------|----------------|----------------|----------------|
A|2--22-02-02-2-2-/5---5--5--5-5-7-|----------------|----------------|
E|----------------|----------------|5---5--5--5---0-/3---3--33-3-----|

G|----------------|----------------| similar variants of this, play 
D|----------------|----------------| it how you want.
A|--------------2-/7---7-57-57-7---| 
E|2------22-2-----|----------------| x2


G|----------------|----------------|----------------|----------------|
D|----9--9-9-9-7--|----7--7--57-5--|----------------|-------5---5----|
A|--------------97|--------57----7-|57-57---57-57---|57-57-7--7--7-5-|
E|7-7-----7-------|5-5-------------|----------------|----------------| 
                             play til the end			

Все исполнители

1-9

A

B

C

D

E

F

G

H

I

J

K

L

M

N

O

P

Q

R

S

T

U

V

W

X

Y

Z

А

Б

В

Г

Д

Е

Ж

З

И

К

Л

М

Н

О

П

Р

С

Т

У

Ф

Х

Ц

Ч

Ш

Щ

Ы

Э

Ю

Я